XIY Tab

Joined: Aug 24 2016, 09:51 AM

Aug 24 2016, 09:57 AM #1

I can't seem to find an XIY (off of blue screen life) guitar tab anywhere. Just a few Bass ones here and there. It's a little rough by ear with all the layers going on.

https://youtu.be/wyqneomsB9c

If anyone can get back to me with a finding/original tab of sorts, that would be great!
Quote
Like
Share

Joined: Sep 8 2017, 02:13 PM

Sep 8 2017, 02:53 PM #2

might have a lil someunthin

nevertabbed bfrore so bare with

im not gonna get too detyailed (slides, rhtyms, hammers, ghosts, goblins, mutes, etc). you can prolly worj with this. i can add more later if u want.

e------------------------------------------------------------------------------------------------------------
b------------------------------------------------------------------------------------------------------------
g --- --------5 5 --------4--------------------------------------------5 - 5 -----------4 ------------------
d --- -- 2 ---2 2 ----(2) 2------ 7 -5- 7 - 7 - 9 ------------- 2 ---- 2 - 2 ------ (2) 2 ------- 5 --------
a --- 0 ------------0-------------------------------------- 0 ------------------ 0---------------------3-----
E--------------------------------- 3 --- 3 --------------------------------------------------- 1----------1 -


e -----------
b ----------
g ---------
d --- 7 -----
a --- 5 -----
E --- 3 -----

not as familiar with the song as i used to be. as i listen to it more ill prolly change tyhis next part.

here's what im playing for now:

lots of hammerin here v i can gets specific if need

e -----------------------------------------------------------------------------------------------
b ----------------------------------------------------------------------------------------------
g ---------------------------------------------------------------------------------------------
d ----------------------------4 (bendy doodle)--------------- 3 --------------------5---------
a --- 5 -- 0 ---- 5 --- 7 ---------------------------(0) ------ 3 ---3 ---------------5--------
E ---------------------------------------------------------1 ----------------1-----3------------


hard to explain what im doing here ( F and G) theres alot of muting and dead notes and ifeel like theres some open muted notes in there. this is it for now.



other part
im playin somethin based on these chotrds

e--------------------------------------------------------------
b--------------------------------------------------------------------
g-------7---------2-------2-------------------------------------------
d-------7---------0-------0-------------------------------------------
a-------5--------(0)------1----------------------------------------------
E-----------------1---------------------------------------------------
Quote
Like
Share

Joined: Sep 8 2017, 02:13 PM

Sep 8 2017, 02:55 PM #3

im seweing in the firet line that the 3 and the 7 look slightly askew. there supposed to be played at the same time.
Quote
Like
Share